Дельфин

Перейти вниз

Дельфин

Сообщение  ..†Dark_Kitty†.. в Ср Авг 27, 2008 12:05 am

Надежда

Bm G# F
E-----------1----------------1--
B---------1--------4------1-----
G-------3---------5------2------
D-----3----------6------3-------
A---1---------------------------
E-1-----------------------------
Мелодия (с октавной позицией лучше)
Bm G# F
E-------------------------------
B-------------------------------
G-------------------------------
D-3------3----------------------
A----6-4----6-4-6--4-6-4--3-4-6-
E-------------------------------

Во время Тяжелой части Bm, Bm, G#, F, - драйвом

Bm
Не осталось ни сил, ни ощущения боли,
Тоской изъедена душа, как личинками моли,
G#
Все катится в пропасть, причем уже не в первый раз,
F
И равен нулю смысл дружеских фраз.
Все кому-то подарено, потеряно, продано,
И сердце, кровью облитое, за ужином подано.
Осталась только грязь на дне карманов одежды
И какое-то чувство, что-то вроде надежды.

Она слышит шаги, они все тише и тише.
Он снова стал журавлем, и будет жить где-то выше.
Она его не ждет, она простила и плачет,
А тупая подруга ее надежды дурачит.
Время тихо уходит, и наивная ложь
К запястью левой руки примеряет свой нож.
Надежда была и осталась напрасной,
Она капает на пол липкой жидкостью красной.

Ты изначально один, но даже если есть друг,
Он не увидит всех бед на ладонях твоих рук,
Он за тебя не станет смелым, если ты оторопел,
И за тебя сказать не сможет то, что ты сказать хотел.
Он может только помочь, если что-то не так,
Когда глаза твои застелит безысходности мрак,
Когда слезы ровно делят на три части лицо,
И не осталось надежды на себя самого.
Надежда - самообман, но это все что у нас есть.
Она ходит по рукам, продавая свою честь,
Эта лживая тварь пыль пускает в глаза,
Исчезая в тот момент, когда она так нужна.
Она будет уходить, и возвращаться много раз,
Всегда держа на расстоянии заветный алмаз.
Я без надежды убит, тоской навылет прострелян,
Потому что я надеялся, а не был уверен.
avatar
..†Dark_Kitty†..

Женщина Количество сообщений : 26
Возраст : 27
Дата регистрации : 2008-07-30

Посмотреть профиль http://vkontakte.ru/id4379555

Вернуться к началу Перейти вниз

Re: Дельфин

Сообщение  ..†Dark_Kitty†.. в Ср Авг 27, 2008 12:05 am

Весна

E|----------------------------------------------1-|
H|------------------------------------------------|
G|------------------------------------------------|
D|------------------------------------------------|
A|-3-------------------1--------------------------|
E|--------------------------------------1---------|

Мы обьязательно встретимя слышишь меня.Прости.

E|------------------------------------------------|
H|----------------------------------------1-------|
G|------------------------------------------------|
D|------------------------------------------------|
A|-3-------------------1--------------------------|
E|--------------------------------------1---------|

Там куда я ухожу. Весна.

две оставшиеся строчки также, а потом играются эти
"замысловатые табы" вместе с аккордами.



Cm B Fm
Мы обьязательно встретимя слышишь меня.Прости.
Cm B Fm
Там куда я ухожу.Весна.
Cm B Fm
Я знаю ты сможешь меня найти.
Cm B Fm
Не оставайся одна.
avatar
..†Dark_Kitty†..

Женщина Количество сообщений : 26
Возраст : 27
Дата регистрации : 2008-07-30

Посмотреть профиль http://vkontakte.ru/id4379555

Вернуться к началу Перейти вниз

Re: Дельфин

Сообщение  ..†Dark_Kitty†.. в Ср Авг 27, 2008 12:07 am

Романс

F Am
Скажите ей, что я ушёл,
Dm C
И что не смог её дождаться.
F Am
Лишь октября зажёг костёр,
Dm C
Чтобы хоть как-то попрощаться.

Скажите ей, что новый день
Усталым вздохом оборвётся,
И невозможной грусти тень
Над одиночеством прольётся.

Припев:

F C Dm
Скажите ей, что я вернусь,
F C Dm
Скажите ей, что я останусь,
F C Dm
Усталым солнцем разобьюсь
F C Dm
О сердца трепетную малость.

Скажите ей, что я люблю,
И что в разлуке умираю,
И на руках её одну
К закатным далям поднимаю.

Припев.
avatar
..†Dark_Kitty†..

Женщина Количество сообщений : 26
Возраст : 27
Дата регистрации : 2008-07-30

Посмотреть профиль http://vkontakte.ru/id4379555

Вернуться к началу Перейти вниз

Re: Дельфин

Сообщение  РеФлЕнНаЯ в Ср Авг 27, 2008 6:34 pm

оооой, во клевые песенки)))
avatar
РеФлЕнНаЯ

Женщина Количество сообщений : 40
Возраст : 27
Дата регистрации : 2008-08-10

Посмотреть профиль

Вернуться к началу Перейти вниз

Re: Дельфин

Сообщение  Блин в Чт Сен 11, 2008 1:44 am

ыыыы, за весну спасибо)
avatar
Блин

Мужчина Количество сообщений : 31
Возраст : 26
Географическое положение : ТМЗ
Дата регистрации : 2008-08-21

Посмотреть профиль

Вернуться к началу Перейти вниз

Re: Дельфин

Сообщение  Спонсируемый контент


Спонсируемый контент


Вернуться к началу Перейти вниз

Вернуться к началу


 
Права доступа к этому форуму:
Вы не можете отвечать на сообщения