Парочка аккордов Люмена=)

Перейти вниз

Парочка аккордов Люмена=)

Сообщение  РеФлЕнНаЯ в Вс Авг 10, 2008 11:02 pm

Fuckin' off
Am

Когда у всех make up,

C

У меня - face off.

G G

(Hет лица! Fuck&off!)

Am

Я всю ночь не спал,

C

Я теперь я не здоров:

G F

(Hе здоров! Fuck&off!)

Am

Все спешат по делам,

C

А я просто в хлам:

G G

(Просто в хлам! В голове бедлам!)

Am C

И у меня больше нет слов,

G

Кроме "fuck off!"



Em F

FUCK&OFF!!!

Fuck off!!!



Hочь Камасутры,

И дикое утро,

Хмурое утро:

За полчаса сна

Я отдал бы слона.

Пусть мне присниться

Полёт из окна:

Автобус пыльный

Крутит мили

Пыль и жара меня чуть не убили

А мне бы свободу

И два колеса

Два колеса и чудеса!



Радио харкает в меня злой песней,

О том, что ты не будешь моей невестой.

У меня для радио есть пара слов:

"Заткнись, сука! Fuck&off!!!"



FUCK&OFF!!!

Fuck off!!!



Государство

Вступление: E5 A5 E5 A5
E|------------------------------|-------------------------------|
H|------------------------------|-------------------------------|
D|------------------------------|-------------------------------|
G|----------9-10--7-7---5-7--5--|---------9-10--7-7---5-7-5-7-5-|
A|-7---7-7----------------------|-7--7-7------------------------|
E|------------------------------|-------------------------------|

E5 A5 E5 A5
|------------------------------|-------------------------------|
|------------------------------|-------------------------------|
|------------------------------|--------------------9-7--------|
|-8/9------9-10--7-7---5-7--5--|---------9-10--7--5-----9-7-5--|
|-----7-7----------------------|-7--7-7------------------------|
|------------------------------|-------------------------------|

E5
Заплати налоги и живи спокойно
Но каждый рубль как покойник
На эти деньги люди сверху
Нас, всех остальных, превращают в перхоть
Они проводят невнятные реформы
Меняют гаишникам название и форму
Кидают стариков через одно место
Каждый день проверяя, из какого же мы теста!

E5 D5 C5
Здесь типа демократия, на самом деле царство
Я так люблю свою страну... и ненавижу
E5 D5 C5
Государство, государство, государство! Я ненавижу
Государство, государство, государство!

E5 D5
A|-7--7-5---7-5---7-5---7-5---5--| \
E|--------8-----8-----8-----8----| / 4 раза

E5
Заплати налоги и живи спокойно
На эти деньги продолжают войны
C5
Люди делят власть и нефть
C5 D5
Мы пешки в играх, мы не люди, нет!
E5
Плати налоги, живи спокойно,
И похеру на то, живешь ли ты достойно!
C5
Твое право - заткнуться, молчать!
Ты еще не понял!?
Гони бабки, твою мать!

Припев

Проигрыш = вступление

Припев } 2 раза




Сид и Нэнси

Проигрыш: Em C Am H

Em C
(1) Мои дороги, дороги вен
Am H Em
Машинкой размажет по кирпичности стен
Обломки империи элементы систем
И тот кто был всем тот станет никем
Но мы стобою будем вместе как Сид и Нэнси
Сид и Нэнси
И низачто не доживем до пенсии как Сид и Нэнси
Сид и...

(2) Дорожки пыли, пыль дорожек
Белый смелый хитрый тоже
Покотились глаза по бледной коже
У меня есть ножик где-то ножик
И мы с тобою станем вместе как Сид и Нэнси
Сид и Нэнси
И низачто не доживем до пенсии мы Сид и Нэнси
Сид и..

(3) Героиновый рай и они там в двоем
И мы наверное туда попадем
По дорогам вен по дорожкам пыли
Ведь мы так любили мы были
Мы были с тобой все время вместе как Сид и Нэнси
Сид и Нэнси
И низачто бы не дожили до пенсии как Сид и Нэнси
Сид и..

--------------------------------------------------------------------------------

Соло: 1||----------------------------------------------------------
2||----------------------------------------------------------
3||----------------------------------------------------------
4||------9--10-9---9-------9---10-9----9-----9---10-9---9----
5||--7-7--7------7-------------------------------------------
6||------------------10-10--10------10---8-8---8------8------

1||----------------------------------------------------------
2||----------------------------------------------------------
3||----------------------------------------------------------
4||-------9-10--------9-10-----------------------------------
5||----------------------------------------------------------
6||-10-10-------11-11----------------------------------------

Это я подобрал вступление, оно повторяется по всей песне в куплетах
для второй гитары (соло), подбирал для версии в Live in navigator club,
в новой версии немного по-другому.

--------------------------------------------------------------------------------

4)-------9------10-9--------9-------9---------10-9---------9--10------9—10------------
5)----7----7-7-------7----------7------7-7----------7------------------------------7--
6)-----------------------10-----------------------------10---------11-----------------
Соло играется после обычного проигрыша табулатуры перед последним куплетом,
Играешь и поёшь последний куплет (Live in Navigator club версия)

--------------------------------------------------------------------------------

Em D C
Вены дорог, дороги вен
D D# Em
Машинкой размажет по кирпичности стен,
D C
Обломки империи, элементы систем,
D D# Em
И тот, кто был всем - тот станет никем.

D C
Но мы с тобою будем вместе
D D# Em
Как Сид и Нэнси, Сид и Нэнси.
D C
И ни за что не доживем до пенсии,
D D#
Как Сид и Нэнси, Сид и...

Проигрыш: Em | D | C | D D# } 4 раза

Дорожки пыли, пыль дорожек,
Белый - смелый, хитрый - тоже,
Покатились глаза по бледной коже,
У меня есть ножик, где-то ножик.

И мы с тобою станем вместе
Как Сид и Нэнси, Сид и Нэнси.
И ни за что не доживем до пенсии,
Мы Сид и Нэнси, Сид и...

Героиновый рай - и они там вдвоем,
И мы, наверное, туда попадем
По дорогам вен, по дорожкам пыли,
Ведь мы так любили, мы были...

Мы были с тобой все время вместе
Как Сид и Нэнси, Сид и Нэнси.
И ни за что бы не дожили до пенсии,
Как Сид и Нэнси, Сид и...

--------------------------------------------------------------------------------

Бac-тaбyлaтypa
5-aя cтpyнa |--7--5--3--5--6--|
и тaк cнoвa

--------------------------------------------------------------------------------

(b) - Full bend
/ - slide

Intro Solo:
First Time: 1
E|--------------------------------------------|
H|--------------------------------------------|
G|------4---5--4--0--4-------4---5--4--0--4---|
D|-2--2---2-------------0--0---0--------------|
A|--------------------------------------------|
E|--------------------------------------------|

Second Time: 2
E|------------------------------------------------------|
H|------------------------------------------------------|
G|------4----5--4--0--4-----------2--0-----------2--0---|
D|---------------------------0--0-----------1--1--------|
A|-3--3---3---------------------------------------------|
E|------------------------------------------------------|

В кyплeтe вooбщe игpaeтcя intro solo тo ecть игpaeшь этo coлo
и нaклaдывaeшь нa нeгo cлoвa.
a в пpипeвe идeт cлeдyющий Riff (игpaeтcя нa квинтax)

Em D C D D#
E|-----------------------------------------|
H|-----------------------------------------|
G|-9-9-9-9---7-7-7-7---5-5-5-5--7-7--8-8---|
D|-9-9-9-9---7-7-7-7---5-5-5-5--7-7--8-8---| } 4 paзa
A|-7-7-7-7---5-5-5-5---3-3-3-3--5-5--6-6---|
E|-----------------------------------------|

И Дaлee пocлe 2 кyплeтa идeт oпять пpипeв, a пocлe пpипeвa cлeдyющee coлo

SOLO: E|------------------------------------------------------------------|
H|------------------------------------------------------------------|
G|------------------------------------------------------------------|
D|-9(b)--7/5--7/5------------------------7--7/5--7/5----------------|
A|----------------5--5/7(тянeтcя)--5--5--------------5--5/7-9-10-9--|
E|------------------------------------------------------------------|

Bass Tab:
Этoт бac игpaeтcя в кyплeтe:
E|------------------------------------------------------------------|
H|------------------------------------------------------------------|
G|------------------------------------------------------------------|
D|-----------------0-0-0-0-0-0-0-0------------------0-0-0-0-1-1-1-1-|
A|----------------------------------3-3-3-3-3-3-3-3-----------------|
E|-0-0-0-0-0-0-0-0--------------------------------------------------|

A этoт в пpипeвe:
E|----------------------------------------|
H|----------------------------------------|
G|----------------------------------------|
D|----------------------------------------|
A|-7-7-9-10---5-5-7-9--3-3-5-7--5-5-7-9---|
E|----------------------------------------|



Вeны дopoг, дopoги вeн
Мaшинкoй paзмaжeт пo киpпичнocти cтeн
Oблoмки импepии элeмeнты cиcтeм
И тoт ктo был вceм тoт cтaнeт никeм
Нo мы c тoбoю бyдeм вмecтe кaк Cид и Нэнcи
Cид и Нэнcи
И ни зa чтo нe дoживeм дo пeнcии кaк Cид и Нэнcи
Cид и...

Пpoигpыш: Em D C Am H7 Em

Em D C
Дopoжки пыли, пыль дopoжeк
Am H7 Em
Бeлый cмeлый xитpый тoжe
Пoкaтилиcь глaзa пo блeднoй кoжe
У мeня ecть нoжик гдe-тo нoжик
И мы c тoбoю cтaнeм вмecтe кaк Cид и Нэнcи
Cид и Нэнcи
И ни зa чтo нe дoживeм дo пeнcии мы Cид и Нэнcи
Cид и..

Пpoигpыш: Em D C Am H7 Em

Гepoинoвый paй и oни тaм вдвoeм
И мы нaвepнoe тyдa пoпaдeм
Пo дopoгaм вeн пo дopoжкaм пыли
Вeдь мы тaк любили мы были
Мы были c тoбoй вce вpeмя вмecтe кaк Cид и Нэнcи
Cид и Нэнcи
И ни зa чтo бы нe дoжили дo пeнcии кaк Cид и Нэнcи
Cид и..
avatar
РеФлЕнНаЯ

Женщина Количество сообщений : 40
Возраст : 26
Дата регистрации : 2008-08-10

Посмотреть профиль

Вернуться к началу Перейти вниз

Re: Парочка аккордов Люмена=)

Сообщение  GeCKo в Пн Авг 11, 2008 4:22 am

Волк ещё хорошо играется)
Вступление:
Am Em Dm Am Em Dm
1|-0---0-3-----------|-0---0-8-7-3-0-1-|
2|-1---0-3—-1---3-1--|-1---0---------3-|
3|-2---0-2—-2--------|-2---0---------2-|
4|----------0--------|-----------------|

Am Em Dm
Зря я бросил свою душу у порога -
Am Em Dm
Поиссохлась. Измельчала.
Но не мог уже тащить такую ношу -
Все царапалась, кричала.
Am G F Am G F
А ее пускай утащат ночью в лес злые волки, злые волки,
Am Em Dm Am G F
Я ее, если надо, ворочу. Нет души, есть двустволка...

А душа то по болотам поразбухла,
Ожила, пристрелялась.
Ее серый волк носил под серой шкурой,
И она мне не давалась.

А я волка прострелил навылет в грудь,
Но ведь душу-то свою не воротить, не вернуть...

G
Она в меня не лезет,
F
Она меня не хочет,
Am
И с желтыми глазами
Em
Все ждет и зубы точит.
G
Душа моя чужая
F
Обратно хочет в стаю,
Dm
И я бегу за нею,
Em
Я волк, я это знаю...
avatar
GeCKo

Мужчина Количество сообщений : 78
Географическое положение : Туймазы
Дата регистрации : 2008-08-06

Посмотреть профиль

Вернуться к началу Перейти вниз

Re: Парочка аккордов Люмена=)

Сообщение  GeCKo в Вс Авг 24, 2008 7:29 pm

Люмен - C4

Am F
Как можно обижаться на тех,
E G
Кто не нюхал ни пороха, ни кокаина?
А если и нюхал . остался доволен,
Жги мои сны, стреляй в мою спину.
Как можно верить тому,
У кого есть тридцать монет серебром?
А если и нет, то есть план
Вернуться в Содом.

F Dm
Больше ни веры, ни обид .
Am
У меня внутри свербит
Am
С4! С4!

F Dm
Завтра утром на рассвете
G
Я стану просто вспышкой света
G
В этом мире. В этом странном мире!

Как можно любить тех,
Кто меняет в груди молоко на пластмассу?
А если и не меняет, то копит яд
До критической массы!
Как можно злиться на тех,
Кто не грелся в руках своей любящей мамы?
А если и грелся . приходили отцы
И продавали детей за сто граммов!!!

Никто не любит и не злит .
У меня внутри свербит
С4! С4!

Завтра утром на рассвете
Я стану просто вспышкой света
В этом мире. В этом странном мире!
avatar
GeCKo

Мужчина Количество сообщений : 78
Географическое положение : Туймазы
Дата регистрации : 2008-08-06

Посмотреть профиль

Вернуться к началу Перейти вниз

Re: Парочка аккордов Люмена=)

Сообщение  GeCKo в Вс Авг 24, 2008 7:37 pm

Lumen - Бабочки


Проигрыш: G Em Hm D

G Em
У бабочки всего лишь день,
Hm D G
Последний день, чтобы влюбиться и умереть.
Em Hm
Но она сидит в закрытой банке,
D G
Из нее можно только смотреть.
Em Hm
Как улетают далеко
D G
Все, кто был с нею рядом.
Em Hm
Бабочка долбится в стекло,
D G
Ей больше ничего не надо

У девочки всего лишь день,
Последний день, чтобы влюбиться и умереть.
Но она сидит в больнице у окна,
Из него можно только смотреть.
Как убегают далеко
Все, кто был с нею рядом.
Девочка долбится в стекло,
Ей больше ничего не надо

Свобода придет к ним лишь со смертью.
Хотите верьте, хотите не верьте.
Но еще не поздно освободиться,
Сломать все клетки, сбежать из больницы.
Чтобы умчаться далеко
С теми, кто будет рядом.
О, это сладкая свобода,
А больше ничего не надо
avatar
GeCKo

Мужчина Количество сообщений : 78
Географическое положение : Туймазы
Дата регистрации : 2008-08-06

Посмотреть профиль

Вернуться к началу Перейти вниз

Re: Парочка аккордов Люмена=)

Сообщение  GeCKo в Вс Авг 24, 2008 7:41 pm

Lumen - Дневник

D G D A
Твоя тетрадь хранит в себе немые тайны,
Hm G Em A
Она хоронит их в решетках ровных клеток...
В ней сладкий вкус полуночных объятий,
В ней горький вкус веселеньких таблеток.

D G Em A
Я украл твой дневник
Твой секрет, твой тайник.
Я знаю с кем ты хочешь быть рядом,
Но он с той стороны телевизора, дура...

Теперь я прячусь от твоих тяжелых взглядов
Я поломал все так, что это не наладить...
Я просто видел твою душу без обмана
И я так рад, что я сумел тебе нагадить...

Я украл твой дневник
Твой секрет, твой тайник.
Я знаю с кем ты хочешь быть рядом,
Но он с той стороны телевизора, дура...
Я сожгу твою тетрадку
И мне будет сладко, сладко...
Я теперь знаю всю правду,
Мы врали друг другу всю дорогу...
avatar
GeCKo

Мужчина Количество сообщений : 78
Географическое положение : Туймазы
Дата регистрации : 2008-08-06

Посмотреть профиль

Вернуться к началу Перейти вниз

Re: Парочка аккордов Люмена=)

Сообщение  GeCKo в Вс Авг 24, 2008 7:47 pm

Lumen - Между строчек

Вступление:

G|-----5-----5-----| \
D|-2-3---2-3---2-3-| / 2 раза

F C Dm B
H||-----------------|-----------------|-----------------|/5-3-5-6----6--|
G||-----5-----5-----|-----5-----5-----|-----5-----5-----|----------7----|
D||-2-3---2-3---2-3-|-2-3---2-3---2-3-|-2-3---2-3--2-3-|---------------|

F C Am B
H||-----------------|-----------------|-----------------|/5-3-5-6-------|
G||-----5-----5-----|-----5-----5-----|-----5-----5-----|----------7----|
D||-2-3---2-3---2-3-|-2-3---2-3---2-3-|-2-3---2-3--2-3-|---------------|

(тот же проигрыш в припеве)

F C
Я напрочь забываю все что важно, что не очень,
Dm B
В нашей маленькой квартире поселилась осень.
F C
Когда она пришла никто не помнит и не знает
Am B
Я просто наблюдаю как мимо пролетают

Мои мысли, твои руки,
Чужие песни, чужие звуки
Листы бумаги и пробный росчерк
На них ложаться новые строчки...

F C Am B
А между строчек одно и то же слово "свобода"
F C Dm B
Между строчек то, о чем не скажешь словами
Между строчек понятный знак из трех точек
Между строчек то, о чем вы знаете сами...

Каждый понедельник начинает все сначала
Подхватило, унесло и на неделю замотало
В голове звучит по кругу песенка про грусть
Но очень скоро выходные и тогда я вновь вернусь

В нашу осень, в твои руки,
В чужие песни, в чужие звуки.
Листы бумаги и пробный росчерк
На них ложатся новые строчки...

Припев

Проигрыш: Dm | C/E | B | C > 3 раза
Dm | C/E | B | B

Припев
avatar
GeCKo

Мужчина Количество сообщений : 78
Географическое положение : Туймазы
Дата регистрации : 2008-08-06

Посмотреть профиль

Вернуться к началу Перейти вниз

Re: Парочка аккордов Люмена=)

Сообщение  Спонсируемый контент


Спонсируемый контент


Вернуться к началу Перейти вниз

Вернуться к началу


 
Права доступа к этому форуму:
Вы не можете отвечать на сообщения